  0
SECTION
  2
HEADER
  9
$ACADVER
  1
AC1015
  9
$ACADMAINTVER
 70
     6
  9
$DWGCODEPAGE
  3
ANSI_1254
  9
$INSBASE
 10
0.0
 20
0.0
 30
0.0
  9
$EXTMIN
 10
0.0
 20
0.0
 30
0.0
  9
$EXTMAX
 10
279.4
 20
215.9
 30
0.0
  9
$LIMMIN
 10
0.0
 20
0.0
  9
$LIMMAX
 10
279.4
 20
215.9
  9
$ORTHOMODE
 70
     0
  9
$REGENMODE
 70
     1
  9
$FILLMODE
 70
     1
  9
$QTEXTMODE
 70
     0
  9
$MIRRTEXT
 70
     1
  9
$LTSCALE
 40
1.0
  9
$ATTMODE
 70
     1
  9
$TEXTSIZE
 40
3.5
  9
$TRACEWID
 40
1.0
  9
$TEXTSTYLE
  7
Standard
  9
$CLAYER
  8
0
  9
$CELTYPE
  6
ByLayer
  9
$CECOLOR
 62
   256
  9
$CELTSCALE
 40
1.0
  9
$DISPSILH
 70
     0
  9
$DIMSCALE
 40
1.0
  9
$DIMASZ
 40
3.5
  9
$DIMEXO
 40
1.0
  9
$DIMDLI
 40
3.75
  9
$DIMRND
 40
0.0
  9
$DIMDLE
 40
0.0
  9
$DIMEXE
 40
1.0
  9
$DIMTP
 40
0.0
  9
$DIMTM
 40
0.0
  9
$DIMTXT
 40
3.5
  9
$DIMCEN
 40
2.5
  9
$DIMTSZ
 40
0.0
  9
$DIMTOL
 70
     0
  9
$DIMLIM
 70
     0
  9
$DIMTIH
 70
     1
  9
$DIMTOH
 70
     1
  9
$DIMSE1
 70
     0
  9
$DIMSE2
 70
     0
  9
$DIMTAD
 70
     1
  9
$DIMZIN
 70
     0
  9
$DIMBLK
  1

  9
$DIMASO
 70
     1
  9
$DIMSHO
 70
     1
  9
$DIMPOST
  1

  9
$DIMAPOST
  1

  9
$DIMALT
 70
     0
  9
$DIMALTD
 70
     3
  9
$DIMALTF
 40
0.0393700787
  9
$DIMLFAC
 40
1.0
  9
$DIMTOFL
 70
     1
  9
$DIMTVP
 40
0.0
  9
$DIMTIX
 70
     0
  9
$DIMSOXD
 70
     0
  9
$DIMSAH
 70
     0
  9
$DIMBLK1
  1

  9
$DIMBLK2
  1

  9
$DIMSTYLE
  2
ISO-25
  9
$DIMCLRD
 70
     0
  9
$DIMCLRE
 70
     0
  9
$DIMCLRT
 70
     0
  9
$DIMTFAC
 40
1.0
  9
$DIMGAP
 40
1.524
  9
$DIMJUST
 70
     0
  9
$DIMSD1
 70
     0
  9
$DIMSD2
 70
     0
  9
$DIMTOLJ
 70
     0
  9
$DIMTZIN
 70
     0
  9
$DIMALTZ
 70
     0
  9
$DIMALTTZ
 70
     0
  9
$DIMUPT
 70
     0
  9
$DIMDEC
 70
     2
  9
$DIMTDEC
 70
     2
  9
$DIMALTU
 70
     2
  9
$DIMALTTD
 70
     3
  9
$DIMTXSTY
  7
Standard
  9
$DIMAUNIT
 70
     0
  9
$DIMADEC
 70
     2
  9
$DIMALTRND
 40
0.0
  9
$DIMAZIN
 70
     0
  9
$DIMDSEP
 70
    44
  9
$DIMATFIT
 70
     3
  9
$DIMFRAC
 70
     0
  9
$DIMLDRBLK
  1

  9
$DIMLUNIT
 70
     2
  9
$DIMLWD
 70
    -2
  9
$DIMLWE
 70
    -2
  9
$DIMTMOVE
 70
     0
  9
$LUNITS
 70
     2
  9
$LUPREC
 70
     2
  9
$SKETCHINC
 40
1.0
  9
$FILLETRAD
 40
10.0
  9
$AUNITS
 70
     0
  9
$AUPREC
 70
     2
  9
$MENU
  1
.
  9
$ELEVATION
 40
0.0
  9
$PELEVATION
 40
0.0
  9
$THICKNESS
 40
0.0
  9
$LIMCHECK
 70
     0
  9
$CHAMFERA
 40
0.0
  9
$CHAMFERB
 40
0.0
  9
$CHAMFERC
 40
0.0
  9
$CHAMFERD
 40
0.0
  9
$SKPOLY
 70
     0
  9
$TDCREATE
 40
2458985.705597141
  9
$TDUCREATE
 40
2458985.580597141
  9
$TDUPDATE
 40
2458985.705597407
  9
$TDUUPDATE
 40
2458985.580597407
  9
$TDINDWG
 40
0.0000000116
  9
$TDUSRTIMER
 40
0.0000000116
  9
$USRTIMER
 70
     1
  9
$ANGBASE
 50
0.0
  9
$ANGDIR
 70
     0
  9
$PDMODE
 70
     0
  9
$PDSIZE
 40
-1.0
  9
$PLINEWID
 40
0.0
  9
$SPLFRAME
 70
     0
  9
$SPLINETYPE
 70
     6
  9
$SPLINESEGS
 70
     8
  9
$HANDSEED
  5
EE
  9
$SURFTAB1
 70
     6
  9
$SURFTAB2
 70
     6
  9
$SURFTYPE
 70
     6
  9
$SURFU
 70
     6
  9
$SURFV
 70
     6
  9
$UCSBASE
  2

  9
$UCSNAME
  2

  9
$UCSORG
 10
0.0
 20
0.0
 30
0.0
  9
$UCSXDIR
 10
1.0
 20
0.0
 30
0.0
  9
$UCSYDIR
 10
0.0
 20
1.0
 30
0.0
  9
$UCSORTHOREF
  2

  9
$UCSORTHOVIEW
 70
     0
  9
$UCSORGTOP
 10
0.0
 20
0.0
 30
0.0
  9
$UCSORGBOTTOM
 10
0.0
 20
0.0
 30
0.0
  9
$UCSORGLEFT
 10
0.0
 20
0.0
 30
0.0
  9
$UCSORGRIGHT
 10
0.0
 20
0.0
 30
0.0
  9
$UCSORGFRONT
 10
0.0
 20
0.0
 30
0.0
  9
$UCSORGBACK
 10
0.0
 20
0.0
 30
0.0
  9
$PUCSBASE
  2

  9
$PUCSNAME
  2

  9
$PUCSORG
 10
0.0
 20
0.0
 30
0.0
  9
$PUCSXDIR
 10
1.0
 20
0.0
 30
0.0
  9
$PUCSYDIR
 10
0.0
 20
1.0
 30
0.0
  9
$PUCSORTHOREF
  2

  9
$PUCSORTHOVIEW
 70
     0
  9
$PUCSORGTOP
 10
0.0
 20
0.0
 30
0.0
  9
$PUCSORGBOTTOM
 10
0.0
 20
0.0
 30
0.0
  9
$PUCSORGLEFT
 10
0.0
 20
0.0
 30
0.0
  9
$PUCSORGRIGHT
 10
0.0
 20
0.0
 30
0.0
  9
$PUCSORGFRONT
 10
0.0
 20
0.0
 30
0.0
  9
$PUCSORGBACK
 10
0.0
 20
0.0
 30
0.0
  9
$USERI1
 70
     0
  9
$USERI2
 70
     0
  9
$USERI3
 70
     0
  9
$USERI4
 70
     0
  9
$USERI5
 70
     0
  9
$USERR1
 40
0.0
  9
$USERR2
 40
0.0
  9
$USERR3
 40
0.0
  9
$USERR4
 40
0.0
  9
$USERR5
 40
0.0
  9
$WORLDVIEW
 70
     1
  9
$SHADEDGE
 70
     3
  9
$SHADEDIF
 70
    70
  9
$TILEMODE
 70
     1
  9
$MAXACTVP
 70
    64
  9
$PINSBASE
 10
0.0
 20
0.0
 30
0.0
  9
$PLIMCHECK
 70
     0
  9
$PEXTMIN
 10
1.0000000000E+20
 20
1.0000000000E+20
 30
1.0000000000E+20
  9
$PEXTMAX
 10
-1.0000000000E+20
 20
-1.0000000000E+20
 30
-1.0000000000E+20
  9
$PLIMMIN
 10
0.0
 20
0.0
  9
$PLIMMAX
 10
420.0
 20
297.0
  9
$UNITMODE
 70
     0
  9
$VISRETAIN
 70
     1
  9
$PLINEGEN
 70
     0
  9
$PSLTSCALE
 70
     1
  9
$TREEDEPTH
 70
  3020
  9
$CMLSTYLE
  2
Standard
  9
$CMLJUST
 70
     0
  9
$CMLSCALE
 40
20.0
  9
$PROXYGRAPHICS
 70
     1
  9
$MEASUREMENT
 70
     1
  9
$CELWEIGHT
370
    -1
  9
$ENDCAPS
280
     0
  9
$JOINSTYLE
280
     0
  9
$LWDISPLAY
290
     1
  9
$INSUNITS
 70
     4
  9
$HYPERLINKBASE
  1

  9
$STYLESHEET
  1

  9
$XEDIT
290
     1
  9
$CEPSNTYPE
380
     0
  9
$PSTYLEMODE
290
     1
  9
$FINGERPRINTGUID
  2
{0c914d4a-b95f-4ff1-8899-dd745ab50db6}
  9
$VERSIONGUID
  2
{FAEB1C32-E019-11D5-929B-00C0DF256EC4}
  9
$EXTNAMES
290
     1
  9
$PSVPSCALE
 40
0.0
  9
$OLESTARTUP
290
     0
  0
ENDSEC
  0
SECTION
  2
CLASSES
  0
CLASS
  1
ACDBDICTIONARYWDFLT
  2
AcDbDictionaryWithDefault
  3
ObjectDBX Classes
 90
        0
280
     0
281
     0
  0
CLASS
  1
VISUALSTYLE
  2
AcDbVisualStyle
  3
ObjectDBX Classes
 90
     4095
280
     0
281
     0
  0
CLASS
  1
MATERIAL
  2
AcDbMaterial
  3
ObjectDBX Classes
 90
     1153
280
     0
281
     0
  0
CLASS
  1
SCALE
  2
AcDbScale
  3
ObjectDBX Classes
 90
     1153
280
     0
281
     0
  0
CLASS
  1
TABLESTYLE
  2
AcDbTableStyle
  3
ObjectDBX Classes
 90
     4095
280
     0
281
     0
  0
CLASS
  1
MLEADERSTYLE
  2
AcDbMLeaderStyle
  3
ACDB_MLEADERSTYLE_CLASS
 90
     4095
280
     0
281
     0
  0
CLASS
  1
SUN
  2
AcDbSun
  3
SCENEOE
 90
     1153
280
     0
281
     0
  0
CLASS
  1
ACDBPLACEHOLDER
  2
AcDbPlaceHolder
  3
ObjectDBX Classes
 90
        0
280
     0
281
     0
  0
CLASS
  1
LAYOUT
  2
AcDbLayout
  3
ObjectDBX Classes
 90
        0
280
     0
281
     0
  0
ENDSEC
  0
SECTION
  2
TABLES
  0
TABLE
  2
VPORT
  5
8
330
0
100
AcDbSymbolTable
 70
     1
  0
VPORT
  5
29
330
8
100
AcDbSymbolTableRecord
100
AcDbViewportTableRecord
  2
*Active
 70
     0
 10
0.0
 20
0.0
 11
1.0
 21
1.0
 12
139.7
 22
107.95
 13
0.0
 23
0.0
 14
10.0
 24
10.0
 15
10.0
 25
10.0
 16
0.0
 26
0.0
 36
1.0
 17
0.0
 27
0.0
 37
0.0
 40
215.9
 41
1.2941176471
 42
50.0
 43
0.0
 44
0.0
 50
0.0
 51
0.0
 71
     0
 72
  2000
 73
     1
 74
     3
 75
     0
 76
     0
 77
     0
 78
     0
281
     0
 65
     1
110
0.0
120
0.0
130
0.0
111
1.0
121
0.0
131
0.0
112
0.0
122
1.0
132
0.0
 79
     0
146
0.0
  0
ENDTAB
  0
TABLE
  2
LTYPE
  5
5
330
0
100
AcDbSymbolTable
 70
     6
  0
LTYPE
  5
14
330
5
100
AcDbSymbolTableRecord
100
AcDbLinetypeTableRecord
  2
ByBlock
 70
     0
  3

 72
    65
 73
     0
 40
0.0
  0
LTYPE
  5
15
330
5
100
AcDbSymbolTableRecord
100
AcDbLinetypeTableRecord
  2
ByLayer
 70
     0
  3

 72
    65
 73
     0
 40
0.0
  0
LTYPE
  5
16
330
5
100
AcDbSymbolTableRecord
100
AcDbLinetypeTableRecord
  2
Continuous
 70
     0
  3
Solid line
 72
    65
 73
     0
 40
0.0
  0
LTYPE
  5
6E
330
5
100
AcDbSymbolTableRecord
100
AcDbLinetypeTableRecord
  2
HIDDEN
 70
     0
  3
Hidden __ __ __ __ __ __ __ __ __ __ __ __ __ __
 72
    65
 73
     2
 40
1.905
 49
1.27
 74
     0
 49
-0.635
 74
     0
  0
LTYPE
  5
6F
330
5
100
AcDbSymbolTableRecord
100
AcDbLinetypeTableRecord
  2
PHANTOM
 70
     0
  3
Phantom ______  __  __  ______  __  __  ______
 72
    65
 73
     6
 40
12.7
 49
6.35
 74
     0
 49
-1.27
 74
     0
 49
1.27
 74
     0
 49
-1.27
 74
     0
 49
1.27
 74
     0
 49
-1.27
 74
     0
  0
LTYPE
  5
70
330
5
100
AcDbSymbolTableRecord
100
AcDbLinetypeTableRecord
  2
CENTER
 70
     0
  3
Center ____ _ ____ _ ____ _ ____ _ ____ _ ____
 72
    65
 73
     4
 40
10.16
 49
6.35
 74
     0
 49
-1.27
 74
     0
 49
1.27
 74
     0
 49
-1.27
 74
     0
  0
LTYPE
  5
71
330
5
100
AcDbSymbolTableRecord
100
AcDbLinetypeTableRecord
  2
CENTERX2
 70
     0
  3
Center (2x) ________  __  ________  __  _____
 72
    65
 73
     4
 40
20.32
 49
12.7
 74
     0
 49
-2.54
 74
     0
 49
2.54
 74
     0
 49
-2.54
 74
     0
  0
LTYPE
  5
72
330
5
100
AcDbSymbolTableRecord
100
AcDbLinetypeTableRecord
  2
DOT2
 70
     0
  3
Dot (.5x) ........................................
 72
    65
 73
     2
 40
0.635
 49
0.0
 74
     0
 49
-0.635
 74
     0
  0
ENDTAB
  0
TABLE
  2
LAYER
  5
2
330
0
100
AcDbSymbolTable
 70
    17
  0
LAYER
  5
10
330
2
100
AcDbSymbolTableRecord
100
AcDbLayerTableRecord
  2
0
 70
     0
 62
     7
  6
Continuous
370
    -3
390
F
  0
LAYER
  5
73
330
2
100
AcDbSymbolTableRecord
100
AcDbLayerTableRecord
  2
FORMAT
 70
     0
 62
     7
  6
Continuous
370
    -3
390
F
  0
LAYER
  5
74
330
2
100
AcDbSymbolTableRecord
100
AcDbLayerTableRecord
  2
YARDIMCI_GEOMETRI
 70
     0
 62
    -6
  6
Continuous
290
     0
370
    -3
390
F
  0
LAYER
  5
75
330
2
100
AcDbSymbolTableRecord
100
AcDbLayerTableRecord
  2
SAYFA_CERCEVESI
 70
     0
 62
     7
  6
Continuous
370
    25
390
F
  0
LAYER
  5
76
330
2
100
AcDbSymbolTableRecord
100
AcDbLayerTableRecord
  2
ANTET
 70
     0
 62
     7
  6
Continuous
370
    -3
390
F
  0
LAYER
  5
77
330
2
100
AcDbSymbolTableRecord
100
AcDbLayerTableRecord
  2
OLCU
 70
     0
 62
   150
  6
Continuous
370
    -3
390
F
  0
LAYER
  5
78
330
2
100
AcDbSymbolTableRecord
100
AcDbLayerTableRecord
  2
METIN
 70
     0
 62
    96
  6
Continuous
370
    -3
390
F
  0
LAYER
  5
79
330
2
100
AcDbSymbolTableRecord
100
AcDbLayerTableRecord
  2
BALON
 70
     0
 62
     5
  6
Continuous
370
    -3
390
F
  0
LAYER
  5
7A
330
2
100
AcDbSymbolTableRecord
100
AcDbLayerTableRecord
  2
VURGU
 70
     0
 62
     7
  6
Continuous
370
    -3
390
F
  0
LAYER
  5
7B
330
2
100
AcDbSymbolTableRecord
100
AcDbLayerTableRecord
  2
SILIK
 70
     0
 62
     7
  6
Continuous
370
    -3
390
F
  0
LAYER
  5
7C
330
2
100
AcDbSymbolTableRecord
100
AcDbLayerTableRecord
  2
MODEL
 70
     0
 62
     7
  6
Continuous
370
    -3
390
F
  0
LAYER
  5
7D
330
2
100
AcDbSymbolTableRecord
100
AcDbLayerTableRecord
  2
DETAYLANDıRMA
 70
     0
 62
   190
  6
Continuous
370
    -3
390
F
  0
LAYER
  5
7E
330
2
100
AcDbSymbolTableRecord
100
AcDbLayerTableRecord
  2
TOLERANS
 70
     0
 62
   230
  6
Continuous
370
    -3
390
F
  0
LAYER
  5
7F
330
2
100
AcDbSymbolTableRecord
100
AcDbLayerTableRecord
  2
MERKEZ_CIZGILERI
 70
     0
 62
    30
  6
Continuous
370
    -3
390
F
  0
LAYER
  5
80
330
2
100
AcDbSymbolTableRecord
100
AcDbLayerTableRecord
  2
KESIT-DETAY_CIZGILERI
 70
     0
 62
     7
  6
Continuous
370
    -3
390
F
  0
LAYER
  5
81
330
2
100
AcDbSymbolTableRecord
100
AcDbLayerTableRecord
  2
\U+041E\U+0421\U+0415\U+0412\U+042B\U+0415
 70
     0
 62
     7
  6
Continuous
370
    -3
390
F
  0
LAYER
  5
82
330
2
100
AcDbSymbolTableRecord
100
AcDbLayerTableRecord
  2
\U+0412\U+041E\U+0414\U+042F\U+041D\U+042B\U+0415_\U+0417\U+041D\U+0410\U+041A\U+0418
 70
     0
 62
    11
  6
Continuous
370
    -3
390
F
  0
ENDTAB
  0
TABLE
  2
STYLE
  5
3
330
0
100
AcDbSymbolTable
 70
     1
  0
STYLE
  5
11
330
3
100
AcDbSymbolTableRecord
100
AcDbTextStyleTableRecord
  2
Standard
 70
     0
 40
0.0
 41
1.0
 50
0.0
 71
     0
 42
3.5
  3
txt
  4

  0
ENDTAB
  0
TABLE
  2
VIEW
  5
6
330
0
100
AcDbSymbolTable
 70
     0
  0
ENDTAB
  0
TABLE
  2
UCS
  5
7
330
0
100
AcDbSymbolTable
 70
     0
  0
ENDTAB
  0
TABLE
  2
APPID
  5
9
330
0
100
AcDbSymbolTable
 70
     1
  0
APPID
  5
12
330
9
100
AcDbSymbolTableRecord
100
AcDbRegAppTableRecord
  2
ACAD
 70
     0
  0
ENDTAB
  0
TABLE
  2
DIMSTYLE
  5
A
330
0
100
AcDbSymbolTable
 70
     1
100
AcDbDimStyleTable
  0
DIMSTYLE
105
27
330
A
100
AcDbSymbolTableRecord
100
AcDbDimStyleTableRecord
  2
ISO-25
 70
     0
 41
2.5
 42
0.625
 43
3.75
 44
1.25
 73
     0
 74
     0
 77
     1
 78
     8
140
2.5
141
2.5
143
0.0393700787
147
0.625
171
     3
172
     1
178
     0
271
     2
272
     2
274
     3
278
    44
283
     0
284
     8
340
11
  0
ENDTAB
  0
TABLE
  2
BLOCK_RECORD
  5
1
330
0
100
AcDbSymbolTable
 70
     2
  0
BLOCK_RECORD
  5
1F
330
1
100
AcDbSymbolTableRecord
100
AcDbBlockTableRecord
  2
*Model_Space
340
22
  0
BLOCK_RECORD
  5
1B
330
1
100
AcDbSymbolTableRecord
100
AcDbBlockTableRecord
  2
*Paper_Space
340
1E
  0
BLOCK_RECORD
  5
23
330
1
100
AcDbSymbolTableRecord
100
AcDbBlockTableRecord
  2
*Paper_Space0
340
26
  0
BLOCK_RECORD
  5
88
330
1
100
AcDbSymbolTableRecord
100
AcDbBlockTableRecord
  2
SW_CENTERMARKSYMBOL_0
340
0
102
{BLKREFS
331
93
102
}
  0
ENDTAB
  0
ENDSEC
  0
SECTION
  2
BLOCKS
  0
BLOCK
  5
20
330
1F
100
AcDbEntity
  8
0
100
AcDbBlockBegin
  2
*Model_Space
 70
     0
 10
0.0
 20
0.0
 30
0.0
  3
*Model_Space
  1

  0
ENDBLK
  5
21
330
1F
100
AcDbEntity
  8
0
100
AcDbBlockEnd
  0
BLOCK
  5
1C
330
1B
100
AcDbEntity
 67
     1
  8
0
100
AcDbBlockBegin
  2
*Paper_Space
 70
     0
 10
0.0
 20
0.0
 30
0.0
  3
*Paper_Space
  1

  0
ENDBLK
  5
1D
330
1B
100
AcDbEntity
 67
     1
  8
0
100
AcDbBlockEnd
  0
BLOCK
  5
24
330
23
100
AcDbEntity
  8
0
100
AcDbBlockBegin
  2
*Paper_Space0
 70
     0
 10
0.0
 20
0.0
 30
0.0
  3
*Paper_Space0
  1

  0
ENDBLK
  5
25
330
23
100
AcDbEntity
  8
0
100
AcDbBlockEnd
  0
BLOCK
  5
89
330
88
100
AcDbEntity
  8
0
100
AcDbBlockBegin
  2
SW_CENTERMARKSYMBOL_0
 70
     0
 10
0.0
 20
0.0
 30
0.0
  3
SW_CENTERMARKSYMBOL_0
  1

  0
LINE
  5
8B
330
88
100
AcDbEntity
  8
FORMAT
 62
     0
100
AcDbLine
 10
0.0
 20
0.0
 30
0.0
 11
0.0
 21
2.5
 31
0.0
  0
LINE
  5
8C
330
88
100
AcDbEntity
  8
FORMAT
 62
     0
100
AcDbLine
 10
0.0
 20
0.0
 30
0.0
 11
-2.5
 21
0.0
 31
0.0
  0
LINE
  5
8D
330
88
100
AcDbEntity
  8
FORMAT
 62
     0
100
AcDbLine
 10
0.0
 20
0.0
 30
0.0
 11
0.0
 21
-2.5
 31
0.0
  0
LINE
  5
8E
330
88
100
AcDbEntity
  8
FORMAT
 62
     0
100
AcDbLine
 10
0.0
 20
0.0
 30
0.0
 11
2.5
 21
0.0
 31
0.0
  0
LINE
  5
8F
330
88
100
AcDbEntity
  8
FORMAT
 62
     0
100
AcDbLine
 10
0.0
 20
5.0
 30
0.0
 11
0.0
 21
72.5
 31
0.0
  0
LINE
  5
90
330
88
100
AcDbEntity
  8
FORMAT
 62
     0
100
AcDbLine
 10
-5.0
 20
0.0
 30
0.0
 11
-72.5
 21
0.0
 31
0.0
  0
LINE
  5
91
330
88
100
AcDbEntity
  8
FORMAT
 62
     0
100
AcDbLine
 10
0.0
 20
-5.0
 30
0.0
 11
0.0
 21
-72.5
 31
0.0
  0
LINE
  5
92
330
88
100
AcDbEntity
  8
FORMAT
 62
     0
100
AcDbLine
 10
5.0
 20
0.0
 30
0.0
 11
72.5
 21
0.0
 31
0.0
  0
ENDBLK
  5
8A
330
88
100
AcDbEntity
  8
0
100
AcDbBlockEnd
  0
ENDSEC
  0
SECTION
  2
ENTITIES
  0
CIRCLE
  5
83
330
1F
100
AcDbEntity
  8
0
  6
Continuous
 62
     7
370
    25
100
AcDbCircle
 10
136.0804557792
 20
118.8813202377
 30
0.0
 40
70.00000000000001
  0
CIRCLE
  5
84
330
1F
100
AcDbEntity
  8
0
  6
Continuous
 62
     7
370
    25
100
AcDbCircle
 10
136.0804557792
 20
118.8813202377
 30
0.0
 40
61.7
  0
CIRCLE
  5
85
330
1F
100
AcDbEntity
  8
0
  6
Continuous
 62
     7
370
    25
100
AcDbCircle
 10
136.0804557792
 20
118.8813202377
 30
0.0
 40
61.23733453559922
  0
CIRCLE
  5
86
330
1F
100
AcDbEntity
  8
0
  6
Continuous
 62
     7
370
    25
100
AcDbCircle
 10
136.0804557792
 20
118.8813202377
 30
0.0
 40
40.06266546440081
  0
CIRCLE
  5
87
330
1F
100
AcDbEntity
  8
0
  6
Continuous
 62
     7
370
    25
100
AcDbCircle
 10
136.0804557792
 20
118.8813202377
 30
0.0
 40
39.60000000000001
  0
INSERT
  5
93
330
1F
100
AcDbEntity
  8
FORMAT
 62
     7
100
AcDbBlockReference
  2
SW_CENTERMARKSYMBOL_0
 10
136.0804557792
 20
118.8813202377
 30
0.0
  0
LINE
  5
94
330
1F
100
AcDbEntity
  8
0
  6
Continuous
 62
     7
370
    25
100
AcDbLine
 10
-123.5938241663
 20
188.8813205357
 30
0.0
 11
-215.1533218059
 21
188.8813205357
 31
0.0
  0
LINE
  5
95
330
1F
100
AcDbEntity
  8
0
  6
Continuous
 62
     7
370
    25
100
AcDbLine
 10
-215.1533218059
 20
48.8813199397
 30
0.0
 11
-123.5938241663
 21
48.8813199397
 31
0.0
  0
ARC
  5
96
330
1F
100
AcDbEntity
  8
0
  6
Continuous
 62
     7
370
    25
100
AcDbCircle
 10
-123.5938238046
 20
186.8813202377
 30
0.0
 40
1.999999999999972
100
AcDbArc
 50
65.1576108945
 51
90.0
  0
ARC
  5
97
330
1F
100
AcDbEntity
  8
0
  6
Continuous
 62
     7
370
    25
100
AcDbCircle
 10
-123.5938238046
 20
50.8813202377
 30
0.0
 40
1.999999999999993
100
AcDbArc
 50
270.0
 51
294.8423891055
  0
LINE
  5
98
330
1F
100
AcDbEntity
  8
0
  6
Continuous
 62
     7
370
    25
100
AcDbLine
 10
-122.7535774889
 20
49.0663849111
 30
0.0
 11
-69.5530625018
 21
73.6962534781
 31
0.0
  0
LINE
  5
99
330
1F
100
AcDbEntity
  8
0
  6
Continuous
 62
     7
370
    25
100
AcDbLine
 10
-69.5530625018
 20
164.0663869973
 30
0.0
 11
-122.7535774889
 21
188.6962555643
 31
0.0
  0
ARC
  5
9A
330
1F
100
AcDbEntity
  8
0
  6
Continuous
 62
     7
370
    25
100
AcDbCircle
 10
-68.7128154546
 20
165.8813202377
 30
0.0
 40
2.0
100
AcDbArc
 50
245.1576108945
 51
270.0
  0
ARC
  5
9B
330
1F
100
AcDbEntity
  8
0
  6
Continuous
 62
     7
370
    25
100
AcDbCircle
 10
-68.7128154546
 20
71.8813202377
 30
0.0
 40
1.999999999999998
100
AcDbArc
 50
90.0
 51
114.8423891055
  0
LINE
  5
9C
330
1F
100
AcDbEntity
  8
0
  6
Continuous
 62
     7
370
    25
100
AcDbLine
 10
9.8466796843
 20
163.8813220259
 30
0.0
 11
-68.7128158244
 21
163.8813220259
 31
0.0
  0
LINE
  5
9D
330
1F
100
AcDbEntity
  8
0
  6
Continuous
 62
     7
370
    25
100
AcDbLine
 10
-68.7128158244
 20
73.8813184496
 30
0.0
 11
9.8466796843
 21
73.8813184496
 31
0.0
  0
LINE
  5
9E
330
1F
100
AcDbEntity
  8
0
  6
Continuous
 62
     7
370
    25
100
AcDbLine
 10
-215.1533218059
 20
188.8813205357
 30
0.0
 11
-215.1533218059
 21
48.8813199397
 31
0.0
  0
LINE
  5
9F
330
1F
100
AcDbEntity
  8
0
  6
Continuous
 62
     7
370
    25
100
AcDbLine
 10
9.8466796843
 20
163.8813220259
 30
0.0
 11
9.8466796843
 21
73.8813184496
 31
0.0
  0
LINE
  5
A0
330
1F
100
AcDbEntity
  8
0
  6
Continuous
 62
     1
370
    25
100
AcDbLine
 10
-123.5938241663
 20
188.8813205357
 30
0.0
 11
-123.5938241663
 21
48.8813199397
 31
0.0
  0
LINE
  5
A1
330
1F
100
AcDbEntity
  8
0
  6
Continuous
 62
     1
370
    25
100
AcDbLine
 10
-122.7535774889
 20
188.6962555643
 30
0.0
 11
-122.7535774889
 21
49.0663849111
 31
0.0
  0
LINE
  5
A2
330
1F
100
AcDbEntity
  8
0
  6
Continuous
 62
     1
370
    25
100
AcDbLine
 10
-69.5530625018
 20
164.0663869973
 30
0.0
 11
-69.5530625018
 21
73.6962534781
 31
0.0
  0
LINE
  5
A3
330
1F
100
AcDbEntity
  8
0
  6
Continuous
 62
     1
370
    25
100
AcDbLine
 10
-68.7128158244
 20
163.8813220259
 30
0.0
 11
-68.7128158244
 21
73.8813184496
 31
0.0
  0
LINE
  5
A4
330
1F
100
AcDbEntity
  8
0
  6
Continuous
 62
     7
370
    25
100
AcDbLine
 10
206.0804560772
 20
383.1353191463
 30
0.0
 11
206.0804560772
 21
474.6948167858
 31
0.0
  0
LINE
  5
A5
330
1F
100
AcDbEntity
  8
0
  6
Continuous
 62
     7
370
    25
100
AcDbLine
 10
66.0804554812
 20
474.6948167858
 30
0.0
 11
66.0804554812
 21
383.1353191463
 31
0.0
  0
ARC
  5
A6
330
1F
100
AcDbEntity
  8
0
  6
Continuous
 62
     7
370
    25
100
AcDbCircle
 10
204.0804557792
 20
383.1353187845
 30
0.0
 40
1.999999999999986
100
AcDbArc
 50
335.1576108945
 51
0.0
  0
ARC
  5
A7
330
1F
100
AcDbEntity
  8
0
  6
Continuous
 62
     7
370
    25
100
AcDbCircle
 10
68.0804557792
 20
383.1353187845
 30
0.0
 40
1.999999999999986
100
AcDbArc
 50
180.0
 51
204.8423891055
  0
LINE
  5
A8
330
1F
100
AcDbEntity
  8
0
  6
Continuous
 62
     7
370
    25
100
AcDbLine
 10
66.2655204526
 20
382.2950724689
 30
0.0
 11
90.8953890196
 21
329.0945574818
 31
0.0
  0
LINE
  5
A9
330
1F
100
AcDbEntity
  8
0
  6
Continuous
 62
     7
370
    25
100
AcDbLine
 10
181.2655225388
 20
329.0945574818
 30
0.0
 11
205.8953911058
 21
382.2950724689
 31
0.0
  0
ARC
  5
AA
330
1F
100
AcDbEntity
  8
0
  6
Continuous
 62
     7
370
    25
100
AcDbCircle
 10
183.0804557792
 20
328.2543104345
 30
0.0
 40
2.0
100
AcDbArc
 50
155.1576108945
 51
180.0
  0
ARC
  5
AB
330
1F
100
AcDbEntity
  8
0
  6
Continuous
 62
     7
370
    25
100
AcDbCircle
 10
89.0804557792
 20
328.2543104345
 30
0.0
 40
1.999999999999986
100
AcDbArc
 50
0.0
 51
24.8423891055
  0
LINE
  5
AC
330
1F
100
AcDbEntity
  8
0
  6
Continuous
 62
     7
370
    25
100
AcDbLine
 10
181.0804575673
 20
249.6948152957
 30
0.0
 11
181.0804575673
 21
328.2543108044
 31
0.0
  0
LINE
  5
AD
330
1F
100
AcDbEntity
  8
0
  6
Continuous
 62
     7
370
    25
100
AcDbLine
 10
91.080453991
 20
328.2543108044
 30
0.0
 11
91.080453991
 21
249.6948152957
 31
0.0
  0
LINE
  5
AE
330
1F
100
AcDbEntity
  8
0
  6
Continuous
 62
     7
370
    25
100
AcDbLine
 10
206.0804560772
 20
474.6948167858
 30
0.0
 11
66.0804554812
 21
474.6948167858
 31
0.0
  0
LINE
  5
AF
330
1F
100
AcDbEntity
  8
0
  6
Continuous
 62
     7
370
    25
100
AcDbLine
 10
181.0804575673
 20
249.6948152957
 30
0.0
 11
91.080453991
 21
249.6948152957
 31
0.0
  0
LINE
  5
B0
330
1F
100
AcDbEntity
  8
0
  6
Continuous
 62
     1
370
    25
100
AcDbLine
 10
206.0804560772
 20
383.1353191463
 30
0.0
 11
66.0804554812
 21
383.1353191463
 31
0.0
  0
LINE
  5
B1
330
1F
100
AcDbEntity
  8
0
  6
Continuous
 62
     1
370
    25
100
AcDbLine
 10
205.8953911058
 20
382.2950724689
 30
0.0
 11
66.2655204526
 21
382.2950724689
 31
0.0
  0
LINE
  5
B2
330
1F
100
AcDbEntity
  8
0
  6
Continuous
 62
     1
370
    25
100
AcDbLine
 10
181.2655225388
 20
329.0945574818
 30
0.0
 11
90.8953890196
 21
329.0945574818
 31
0.0
  0
LINE
  5
B3
330
1F
100
AcDbEntity
  8
0
  6
Continuous
 62
     1
370
    25
100
AcDbLine
 10
181.0804575673
 20
328.2543108044
 30
0.0
 11
91.080453991
 21
328.2543108044
 31
0.0
  0
LINE
  5
B4
330
1F
100
AcDbEntity
  8
0
  6
Continuous
 62
     7
370
    25
100
AcDbLine
 10
404.879521062
 20
48.8813199397
 30
0.0
 11
496.4390187015
 21
48.8813199397
 31
0.0
  0
LINE
  5
B5
330
1F
100
AcDbEntity
  8
0
  6
Continuous
 62
     7
370
    25
100
AcDbLine
 10
496.4390187015
 20
188.8813205357
 30
0.0
 11
404.879521062
 21
188.8813205357
 31
0.0
  0
ARC
  5
B6
330
1F
100
AcDbEntity
  8
0
  6
Continuous
 62
     7
370
    25
100
AcDbCircle
 10
404.8795207002
 20
50.8813202377
 30
0.0
 40
1.999999999999993
100
AcDbArc
 50
245.1576108945
 51
270.0
  0
ARC
  5
B7
330
1F
100
AcDbEntity
  8
0
  6
Continuous
 62
     7
370
    25
100
AcDbCircle
 10
404.8795207002
 20
186.8813202377
 30
0.0
 40
1.999999999999972
100
AcDbArc
 50
90.0
 51
114.8423891055
  0
LINE
  5
B8
330
1F
100
AcDbEntity
  8
0
  6
Continuous
 62
     7
370
    25
100
AcDbLine
 10
404.0392743846
 20
188.6962555643
 30
0.0
 11
350.8387593975
 21
164.0663869973
 31
0.0
  0
LINE
  5
B9
330
1F
100
AcDbEntity
  8
0
  6
Continuous
 62
     7
370
    25
100
AcDbLine
 10
350.8387593975
 20
73.6962534781
 30
0.0
 11
404.0392743846
 21
49.0663849111
 31
0.0
  0
ARC
  5
BA
330
1F
100
AcDbEntity
  8
0
  6
Continuous
 62
     7
370
    25
100
AcDbCircle
 10
349.9985123503
 20
71.8813202377
 30
0.0
 40
1.999999999999986
100
AcDbArc
 50
65.1576108945
 51
90.0
  0
ARC
  5
BB
330
1F
100
AcDbEntity
  8
0
  6
Continuous
 62
     7
370
    25
100
AcDbCircle
 10
349.9985123503
 20
165.8813202377
 30
0.0
 40
2.0
100
AcDbArc
 50
270.0
 51
294.8423891055
  0
LINE
  5
BC
330
1F
100
AcDbEntity
  8
0
  6
Continuous
 62
     7
370
    25
100
AcDbLine
 10
271.4390172114
 20
73.8813184496
 30
0.0
 11
349.9985127201
 21
73.8813184496
 31
0.0
  0
LINE
  5
BD
330
1F
100
AcDbEntity
  8
0
  6
Continuous
 62
     7
370
    25
100
AcDbLine
 10
349.9985127201
 20
163.8813220259
 30
0.0
 11
271.4390172114
 21
163.8813220259
 31
0.0
  0
LINE
  5
BE
330
1F
100
AcDbEntity
  8
0
  6
Continuous
 62
     7
370
    25
100
AcDbLine
 10
496.4390187015
 20
118.8813202377
 30
0.0
 11
496.4390187015
 21
188.8813205357
 31
0.0
  0
LINE
  5
BF
330
1F
100
AcDbEntity
  8
0
  6
Continuous
 62
     7
370
    25
100
AcDbLine
 10
496.4390187015
 20
48.8813199397
 30
0.0
 11
496.4390187015
 21
118.8813202377
 31
0.0
  0
LINE
  5
C0
330
1F
100
AcDbEntity
  8
0
  6
Continuous
 62
     7
370
    25
100
AcDbLine
 10
271.4390172114
 20
118.8813202377
 30
0.0
 11
271.4390172114
 21
163.8813220259
 31
0.0
  0
LINE
  5
C1
330
1F
100
AcDbEntity
  8
0
  6
Continuous
 62
     7
370
    25
100
AcDbLine
 10
271.4390172114
 20
73.8813184496
 30
0.0
 11
271.4390172114
 21
118.8813202377
 31
0.0
  0
LINE
  5
C2
330
1F
100
AcDbEntity
  8
0
  6
Continuous
 62
     1
370
    25
100
AcDbLine
 10
404.879521062
 20
118.8813202377
 30
0.0
 11
404.879521062
 21
188.8813205357
 31
0.0
  0
LINE
  5
C3
330
1F
100
AcDbEntity
  8
0
  6
Continuous
 62
     1
370
    25
100
AcDbLine
 10
404.879521062
 20
48.8813199397
 30
0.0
 11
404.879521062
 21
118.8813202377
 31
0.0
  0
LINE
  5
C4
330
1F
100
AcDbEntity
  8
0
  6
Continuous
 62
     1
370
    25
100
AcDbLine
 10
404.0392743846
 20
118.8813202377
 30
0.0
 11
404.0392743846
 21
188.6962555643
 31
0.0
  0
LINE
  5
C5
330
1F
100
AcDbEntity
  8
0
  6
Continuous
 62
     1
370
    25
100
AcDbLine
 10
404.0392743846
 20
49.0663849111
 30
0.0
 11
404.0392743846
 21
118.8813202377
 31
0.0
  0
LINE
  5
C6
330
1F
100
AcDbEntity
  8
0
  6
Continuous
 62
     1
370
    25
100
AcDbLine
 10
350.8387593975
 20
118.8813202377
 30
0.0
 11
350.8387593975
 21
164.0663869973
 31
0.0
  0
LINE
  5
C7
330
1F
100
AcDbEntity
  8
0
  6
Continuous
 62
     1
370
    25
100
AcDbLine
 10
350.8387593975
 20
73.6962534781
 30
0.0
 11
350.8387593975
 21
118.8813202377
 31
0.0
  0
LINE
  5
C8
330
1F
100
AcDbEntity
  8
0
  6
Continuous
 62
     1
370
    25
100
AcDbLine
 10
349.9985127201
 20
118.8813202377
 30
0.0
 11
349.9985127201
 21
163.8813220259
 31
0.0
  0
LINE
  5
C9
330
1F
100
AcDbEntity
  8
0
  6
Continuous
 62
     1
370
    25
100
AcDbLine
 10
349.9985127201
 20
73.8813184496
 30
0.0
 11
349.9985127201
 21
118.8813202377
 31
0.0
  0
LINE
  5
CA
330
1F
100
AcDbEntity
  8
0
  6
Continuous
 62
     7
370
    25
100
AcDbLine
 10
66.0804554812
 20
-155.7150831287
 30
0.0
 11
66.0804554812
 21
-247.2745807683
 31
0.0
  0
LINE
  5
CB
330
1F
100
AcDbEntity
  8
0
  6
Continuous
 62
     7
370
    25
100
AcDbLine
 10
206.0804560772
 20
-247.2745807683
 30
0.0
 11
206.0804560772
 21
-155.7150831287
 31
0.0
  0
ARC
  5
CC
330
1F
100
AcDbEntity
  8
0
  6
Continuous
 62
     7
370
    25
100
AcDbCircle
 10
68.0804557792
 20
-155.715082767
 30
0.0
 40
1.999999999999986
100
AcDbArc
 50
155.1576108945
 51
180.0
  0
ARC
  5
CD
330
1F
100
AcDbEntity
  8
0
  6
Continuous
 62
     7
370
    25
100
AcDbCircle
 10
204.0804557792
 20
-155.715082767
 30
0.0
 40
1.999999999999998
100
AcDbArc
 50
0.0
 51
24.8423891055
  0
LINE
  5
CE
330
1F
100
AcDbEntity
  8
0
  6
Continuous
 62
     7
370
    25
100
AcDbLine
 10
205.8953911058
 20
-154.8748364513
 30
0.0
 11
181.2655225388
 21
-101.6743214642
 31
0.0
  0
LINE
  5
CF
330
1F
100
AcDbEntity
  8
0
  6
Continuous
 62
     7
370
    25
100
AcDbLine
 10
90.8953890196
 20
-101.6743214642
 30
0.0
 11
66.2655204526
 21
-154.8748364513
 31
0.0
  0
ARC
  5
D0
330
1F
100
AcDbEntity
  8
0
  6
Continuous
 62
     7
370
    25
100
AcDbCircle
 10
89.0804557792
 20
-100.834074417
 30
0.0
 40
1.999999999999998
100
AcDbArc
 50
335.1576108945
 51
0.0
  0
ARC
  5
D1
330
1F
100
AcDbEntity
  8
0
  6
Continuous
 62
     7
370
    25
100
AcDbCircle
 10
183.0804557792
 20
-100.834074417
 30
0.0
 40
2.0
100
AcDbArc
 50
180.0
 51
204.8423891055
  0
LINE
  5
D2
330
1F
100
AcDbEntity
  8
0
  6
Continuous
 62
     7
370
    25
100
AcDbLine
 10
91.080453991
 20
-22.2745792781
 30
0.0
 11
91.080453991
 21
-100.8340747868
 31
0.0
  0
LINE
  5
D3
330
1F
100
AcDbEntity
  8
0
  6
Continuous
 62
     7
370
    25
100
AcDbLine
 10
181.0804575673
 20
-100.8340747868
 30
0.0
 11
181.0804575673
 21
-22.2745792781
 31
0.0
  0
LINE
  5
D4
330
1F
100
AcDbEntity
  8
0
  6
Continuous
 62
     7
370
    25
100
AcDbLine
 10
66.0804554812
 20
-247.2745807683
 30
0.0
 11
206.0804560772
 21
-247.2745807683
 31
0.0
  0
LINE
  5
D5
330
1F
100
AcDbEntity
  8
0
  6
Continuous
 62
     7
370
    25
100
AcDbLine
 10
91.080453991
 20
-22.2745792781
 30
0.0
 11
181.0804575673
 21
-22.2745792781
 31
0.0
  0
LINE
  5
D6
330
1F
100
AcDbEntity
  8
0
  6
Continuous
 62
     1
370
    25
100
AcDbLine
 10
66.0804554812
 20
-155.7150831287
 30
0.0
 11
206.0804560772
 21
-155.7150831287
 31
0.0
  0
LINE
  5
D7
330
1F
100
AcDbEntity
  8
0
  6
Continuous
 62
     1
370
    25
100
AcDbLine
 10
66.2655204526
 20
-154.8748364513
 30
0.0
 11
205.8953911058
 21
-154.8748364513
 31
0.0
  0
LINE
  5
D8
330
1F
100
AcDbEntity
  8
0
  6
Continuous
 62
     1
370
    25
100
AcDbLine
 10
90.8953890196
 20
-101.6743214642
 30
0.0
 11
181.2655225388
 21
-101.6743214642
 31
0.0
  0
LINE
  5
D9
330
1F
100
AcDbEntity
  8
0
  6
Continuous
 62
     1
370
    25
100
AcDbLine
 10
91.080453991
 20
-100.8340747868
 30
0.0
 11
181.0804575673
 21
-100.8340747868
 31
0.0
  0
LINE
  5
DA
330
1F
100
AcDbEntity
  8
0
  6
Continuous
 62
     7
370
    25
100
AcDbLine
 10
414.7787922247
 20
-62.6719238508
 30
0.0
 11
350.0364505617
 21
-25.2969655572
 31
0.0
  0
LINE
  5
DB
330
1F
100
AcDbEntity
  8
0
  6
Continuous
 62
     7
370
    25
100
AcDbLine
 10
280.0421413735
 20
-146.5438057547
 30
0.0
 11
344.7844830365
 21
-183.9187640484
 31
0.0
  0
SPLINE
  5
DC
330
1F
100
AcDbEntity
  8
0
  6
Continuous
 62
     7
370
    25
100
AcDbSpline
210
0.0
220
0.0
230
1.0
 70
     8
 71
     3
 72
    12
 73
     8
 74
     0
 42
0.000000001
 43
0.00000001
 40
0.0
 40
0.0
 40
0.0
 40
0.0
 40
0.0201571891712682
 40
0.3092153853520314
 40
0.5971373808148527
 40
0.8840022386934893
 40
1.0
 40
1.0
 40
1.0
 40
1.0
 10
422.5874573863013
 20
-69.7016220720095
 30
0.0
 10
422.5573371471595
 20
-69.65798610643361
 30
0.0
 10
422.0952865470493
 20
-68.98860151138375
 30
0.0
 10
421.0925051824037
 20
-67.82227137167993
 30
0.0
 10
419.5696292481186
 20
-66.23314409782049
 30
0.0
 10
418.2719178517321
 20
-65.06499706276695
 30
0.0
 10
417.4536515515878
 20
-64.47659197840282
 30
0.0
 10
417.2180450335115
 20
-64.30717027165407
 30
0.0
  0
SPLINE
  5
DD
330
1F
100
AcDbEntity
  8
0
  6
Continuous
 62
     7
370
    25
100
AcDbSpline
210
0.0
220
0.0
230
1.0
 70
     8
 71
     3
 72
    12
 73
     8
 74
     0
 42
0.000000001
 43
0.00000001
 40
0.0
 40
0.0
 40
0.0
 40
0.0
 40
0.1946916376154467
 40
0.4540494613420513
 40
0.7139901917153078
 40
0.9747344376282214
 40
1.0
 40
1.0
 40
1.0
 40
1.0
 10
347.5465635827616
 20
-185.2725975619166
 30
0.0
 10
348.042667263343
 20
-185.478380164241
 30
0.0
 10
349.1996538278237
 20
-185.958295382395
 30
0.0
 10
351.1102705543535
 20
-186.5220520039866
 30
0.0
 10
353.2635551135588
 20
-186.9724314175825
 30
0.0
 10
354.8021668490119
 20
-187.2115192924641
 30
0.0
 10
355.6353871705091
 20
-187.2536240962629
 30
0.0
 10
355.7089922686296
 20
-187.2573435545322
 30
0.0
  0
LINE
  5
DE
330
1F
100
AcDbEntity
  8
0
  6
Continuous
 62
     7
370
    25
100
AcDbLine
 10
358.824094818
 20
-187.3672965042
 30
0.0
 11
404.0457152956
 21
-186.6011555649
 31
0.0
  0
LINE
  5
DF
330
1F
100
AcDbEntity
  8
0
  6
Continuous
 62
     7
370
    25
100
AcDbLine
 10
446.7371182114
 20
-112.6494631274
 30
0.0
 11
424.7860951541
 21
-73.1053790318
 31
0.0
  0
LINE
  5
E0
330
1F
100
AcDbEntity
  8
0
  6
Continuous
 62
     7
370
    25
100
AcDbLine
 10
496.6364949159
 20
-138.7940996663
 30
0.0
 11
444.5628808347
 21
-108.7326421334
 31
0.0
  0
LINE
  5
E1
330
1F
100
AcDbEntity
  8
0
  6
Continuous
 62
     7
370
    25
100
AcDbLine
 10
399.5665365796
 20
-186.6770404893
 30
0.0
 11
451.6401506607
 21
-216.7384980223
 31
0.0
  0
LWPOLYLINE
  5
E2
330
1F
100
AcDbEntity
  8
0
  6
Continuous
 62
     7
370
    25
100
AcDbPolyline
 90
      117
 70
   128
 43
0.0
 10
265.5418210738
 20
-114.4946696914
 10
265.614413752
 20
-111.3582988305
 10
265.8319757841
 20
-108.1473154478
 10
266.1938749672
 20
-104.871134585
 10
266.6990470934
 20
-101.5393674425
 10
267.3460064864
 20
-98.1617888711
 10
268.132856538
 20
-94.7483060032
 10
269.0572949765
 20
-91.308925554
 10
270.1166033303
 20
-87.8537431738
 10
271.3076811717
 20
-84.3928879374
 10
272.6270303124
 20
-80.936513217
 10
274.0707811449
 20
-77.4947571408
 10
275.634700545
 20
-74.0777136961
 10
277.3141997746
 20
-70.6954083949
 10
279.1043529207
 20
-67.3577602531
 10
280.9999100667
 20
-64.0745589773
 10
282.9953104626
 20
-60.8554360687
 10
285.0847009649
 20
-57.7098328853
 10
287.2619544754
 20
-54.646974788
 10
289.5206831124
 20
-51.6758483279
 10
291.8542619182
 20
-48.805166267
 10
294.2558459812
 20
-46.0433485688
 10
296.7183915093
 20
-43.3985011067
 10
299.2346769034
 20
-40.8783730805
 10
301.7973185625
 20
-38.490366143
 10
304.3988018353
 20
-36.2414769884
 10
307.0314955079
 20
-34.1383011558
 10
309.6876774874
 20
-32.1870121188
 10
312.3595566986
 20
-30.3933364777
 10
315.0392959676
 20
-28.7625285806
 10
317.7190352367
 20
-27.2993753744
 10
320.3909144478
 20
-26.0081649421
 10
323.0470964274
 20
-24.8926915433
 10
325.6797901
 20
-23.9562239621
 10
328.2812733727
 20
-23.2015044636
 10
330.8439150319
 20
-22.6307483205
 10
333.360200426
 20
-22.2456350706
 10
335.8227459541
 20
-22.047287985
 10
338.224330017
 20
-22.036295745
 10
340.5579088229
 20
-22.2126850663
 10
342.8166374599
 20
-22.5759389522
 10
344.9938909704
 20
-23.1249936541
 10
347.0832814727
 20
-23.8582379121
 10
349.0786818686
 20
-24.7735205622
 10
350.9742390145
 20
-25.8681581422
 10
352.7643921607
 20
-27.1389394559
 10
354.4438913903
 20
-28.5821362217
 10
356.0078107904
 20
-30.1935167617
 10
357.4515616228
 20
-31.9683536081
 10
358.7709107636
 20
-33.9014402347
 10
359.961988605
 20
-35.9871062671
 10
361.0212969588
 20
-38.2192372554
 10
361.9457353973
 20
-40.5912838023
 10
362.7325854489
 20
-43.0962889382
 10
363.3795448419
 20
-45.726904094
 10
363.8847169681
 20
-48.4754119145
 10
364.2466161512
 20
-51.3337528745
 10
364.4641781832
 20
-54.2935444818
 10
364.5367708614
 20
-57.3461016205
 10
364.4641781832
 20
-60.4824724814
 10
364.2466161512
 20
-63.6934558641
 10
363.8847169681
 20
-66.969636727
 10
363.3795448419
 20
-70.3014038694
 10
362.7325854489
 20
-73.6789824408
 10
361.9457353973
 20
-77.0924653087
 10
361.0212969588
 20
-80.5318457579
 10
359.961988605
 20
-83.9870281381
 10
358.7709107636
 20
-87.4478833745
 10
357.4515616228
 20
-90.9042580949
 10
356.0078107904
 20
-94.3460141711
 10
354.4438913903
 20
-97.7630576158
 10
352.7643921607
 20
-101.145362917
 10
350.9742390145
 20
-104.4830110588
 10
349.0786818686
 20
-107.7662123346
 10
347.0832814727
 20
-110.9853352432
 10
344.9938909704
 20
-114.1309384266
 10
342.8166374599
 20
-117.1937965239
 10
340.5579088229
 20
-120.164922984
 10
338.224330017
 20
-123.0356050449
 10
335.8227459541
 20
-125.7974227431
 10
333.360200426
 20
-128.4422702052
 10
330.8439150319
 20
-130.9623982314
 10
328.2812733727
 20
-133.350405169
 10
325.6797901
 20
-135.5992943235
 10
323.0470964274
 20
-137.7024701561
 10
320.3909144478
 20
-139.6537591931
 10
317.7190352367
 20
-141.4474348342
 10
315.0392959676
 20
-143.0782427313
 10
312.3595566986
 20
-144.5413959375
 10
309.6876774874
 20
-145.8326063698
 10
307.0314955079
 20
-146.9480797686
 10
304.3988018353
 20
-147.8845473498
 10
301.7973185625
 20
-148.6392668483
 10
299.2346769034
 20
-149.2100229914
 10
296.7183915093
 20
-149.5951362414
 10
294.2558459812
 20
-149.7934833269
 10
291.8542619182
 20
-149.8044755669
 10
289.5206831124
 20
-149.6280862456
 10
287.2619544754
 20
-149.2648323597
 10
285.0847009649
 20
-148.7157776578
 10
282.9953104626
 20
-147.9825333998
 10
280.9999100667
 20
-147.0672507497
 10
279.1043529207
 20
-145.9726131697
 10
277.3141997746
 20
-144.701831856
 10
275.634700545
 20
-143.2586350902
 10
274.0707811449
 20
-141.6472545502
 10
272.6270303124
 20
-139.8724177038
 10
271.3076811717
 20
-137.9393310772
 10
270.1166033303
 20
-135.8536650448
 10
269.0572949765
 20
-133.6215340565
 10
268.132856538
 20
-131.2494875096
 10
267.3460064864
 20
-128.7444823737
 10
266.6990470934
 20
-126.1138672179
 10
266.1938749672
 20
-123.3653593974
 10
265.8319757841
 20
-120.5070184374
 10
265.614413752
 20
-117.5472268301
 10
265.5418210738
 20
-114.4946696914
  0
LWPOLYLINE
  5
E3
330
1F
100
AcDbEntity
  8
0
  6
Continuous
 62
     7
370
    25
100
AcDbPolyline
 90
      110
 70
   128
 43
0.0
 10
271.4108066075
 20
-111.1065764604
 10
271.4832728451
 20
-108.162218095
 10
271.7004265796
 20
-105.1439753246
 10
272.0615460459
 20
-102.0618744044
 10
272.5654353275
 20
-98.9261521936
 10
273.2104164528
 20
-95.7472276367
 10
273.9943504693
 20
-92.5356580393
 10
274.9146321749
 20
-89.3021132117
 10
275.9682032889
 20
-86.057333645
 10
277.1515656229
 20
-82.8121008537
 10
278.4607863491
 20
-79.5771917489
 10
279.8915164395
 20
-76.3633558259
 10
281.439003837
 20
-73.181266496
 10
283.0981092603
 20
-70.0414952321
 10
284.8633193747
 20
-66.9544735467
 10
286.7287704999
 20
-63.9304549713
 10
288.6882670493
 20
-60.9794831184
 10
290.7352999688
 20
-58.1113597439
 10
292.8630678108
 20
-55.3356173724
 10
295.0645017585
 20
-52.6614774741
 10
297.3322906509
 20
-50.0978177673
 10
299.6589007387
 20
-47.6531577711
 10
302.0366020266
 20
-45.3356162227
 10
304.4574979073
 20
-43.1528939689
 10
306.9135455767
 20
-41.1122408886
 10
309.3965856684
 20
-39.2204357427
 10
311.8983702417
 20
-37.4837639338
 10
314.4105886707
 20
-35.9079934346
 10
316.924895756
 20
-34.49835856
 10
319.4329389717
 20
-33.2595442372
 10
321.9263867008
 20
-32.1956636222
 10
324.3969565937
 20
-31.3102478127
 10
326.8364412102
 20
-30.6062462544
 10
329.2367371601
 20
-30.0859886255
 10
331.5898707866
 20
-29.7512095541
 10
333.8880238491
 20
-29.6030185823
 10
336.1235638169
 20
-29.6419070136
 10
338.2890649422
 20
-29.8677479142
 10
340.3773306504
 20
-30.2797892716
 10
342.3814291022
 20
-30.8766638835
 10
344.2946984612
 20
-31.6563863167
 10
346.1107824559
 20
-32.6163719218
 10
347.8236514529
 20
-33.7534246679
 10
349.4276129932
 20
-35.063773646
 10
350.9173434032
 20
-36.5430609042
 10
352.287887794
 20
-38.1863749081
 10
353.53469694
 20
-39.9882566282
 10
354.6536272794
 20
-41.9427208328
 10
355.6409619868
 20
-44.0432758618
 10
356.4934241448
 20
-46.2829403586
 10
357.2081793778
 20
-48.6542767299
 10
357.7828542914
 20
-51.1494071181
 10
358.2155391066
 20
-53.7600438194
 10
358.5047955621
 20
-56.4775139996
 10
358.6496648171
 20
-59.2927903992
 10
358.6496648171
 20
-62.1965208001
 10
358.5047955621
 20
-65.1790596812
 10
358.2155391066
 20
-68.2304982563
 10
357.7828542914
 20
-71.3407022115
 10
357.2081793778
 20
-74.4993381319
 10
356.4934241448
 20
-77.6959133296
 10
355.6409619868
 20
-80.919809684
 10
354.6536272794
 20
-84.1603171016
 10
353.53469694
 20
-87.4066707774
 10
352.287887794
 20
-90.6480876962
 10
350.9173434032
 20
-93.8737985714
 10
349.4276129932
 20
-97.0730919495
 10
347.8236514529
 20
-100.2353355034
 10
346.1107824559
 20
-103.3500246983
 10
344.2946984612
 20
-106.4068162519
 10
342.3814291022
 20
-109.3955524669
 10
340.3773306504
 20
-112.3063098988
 10
338.2890649422
 20
-115.1294115221
 10
336.1235638169
 20
-117.8554868029
 10
333.8880238491
 20
-120.4754747407
 10
331.5898707866
 20
-122.980674816
 10
329.2367371601
 20
-125.3627659994
 10
326.8364412102
 20
-127.613831085
 10
324.3969565937
 20
-129.7263985126
 10
321.9263867008
 20
-131.6934419852
 10
319.4329389717
 20
-133.5084348397
 10
316.924895756
 20
-135.1653455764
 10
314.4105886707
 20
-136.6586678713
 10
311.8983702417
 20
-137.9834430304
 10
309.3965856684
 20
-139.1352702064
 10
306.9135455767
 20
-140.1103221277
 10
304.4574979073
 20
-140.905361327
 10
302.0366020266
 20
-141.5177459616
 10
299.6589007387
 20
-141.9454398861
 10
297.3322906509
 20
-142.187026719
 10
295.0645017585
 20
-142.2417003345
 10
292.8630678108
 20
-142.1092819702
 10
290.7352999688
 20
-141.7902080574
 10
288.6882670493
 20
-141.2855385843
 10
286.7287704999
 20
-140.596953291
 10
284.8633193747
 20
-139.7267387398
 10
283.0981092603
 20
-138.677785271
 10
281.439003837
 20
-137.4535763549
 10
279.8915164395
 20
-136.0581779434
 10
278.4607863491
 20
-134.4962278214
 10
277.1515656229
 20
-132.7729127919
 10
275.9682032889
 20
-130.8939610693
 10
274.9146321749
 20
-128.8656088184
 10
273.9943504693
 20
-126.6945986315
 10
273.2104164528
 20
-124.3881399837
 10
272.5654353275
 20
-121.9538947831
 10
272.0615460459
 20
-119.3999507532
 10
271.7004265796
 20
-116.7347894942
 10
271.4832728451
 20
-113.9672670888
 10
271.4108066075
 20
-111.1065764604
  0
LWPOLYLINE
  5
E4
330
1F
100
AcDbEntity
  8
0
  6
Continuous
 62
     7
370
    25
100
AcDbPolyline
 90
        3
 70
   128
 43
0.0
 10
414.7787922247
 20
-62.6719238508
 10
415.7165806775
 20
-63.2431164359
 10
417.098589011
 20
-64.2017016027
  0
LWPOLYLINE
  5
E5
330
1F
100
AcDbEntity
  8
0
  6
Continuous
 62
     7
370
    25
100
AcDbPolyline
 90
        3
 70
   128
 43
0.0
 10
347.3909600522
 20
-185.2143871948
 10
345.7422517297
 20
-184.4422090433
 10
344.7844830365
 20
-183.9187640484
  0
ARC
  5
E6
330
1F
100
AcDbEntity
  8
0
  6
Continuous
 62
     7
370
    25
100
AcDbCircle
 10
397.2527855241
 20
-88.5188217576
 30
0.0
 40
31.5534726347829
100
AcDbArc
 50
20.149738561
 51
36.4337205343
  0
ARC
  5
E7
330
1F
100
AcDbEntity
  8
0
  6
Continuous
 62
     7
370
    25
100
AcDbCircle
 10
358.357830223
 20
-155.1261020776
 30
0.0
 40
32.24210257573129
100
AcDbArc
 50
265.5064540456
 51
280.0431085276
  0
LINE
  5
E8
330
1F
100
AcDbEntity
  8
0
  6
Continuous
 62
     7
370
    25
100
AcDbLine
 10
404.6872443305
 20
-186.5801805976
 30
0.0
 11
404.0457152956
 21
-186.6011555649
 31
0.0
  0
LWPOLYLINE
  5
E9
330
1F
100
AcDbEntity
  8
0
  6
Continuous
 62
     7
370
    25
100
AcDbPolyline
 90
       49
 70
   128
 43
0.0
 10
496.6364949159
 20
-138.7940996663
 10
496.8275334093
 20
-138.906275222
 10
498.2818578323
 20
-139.8942834
 10
499.6260209301
 20
-141.0550933913
 10
500.8538903361
 20
-142.3834087571
 10
501.9598605196
 20
-143.8731680821
 10
502.9388896636
 20
-145.5175738758
 10
503.7865075682
 20
-147.3091229919
 10
504.4988472599
 20
-149.2396416125
 10
505.0726607974
 20
-151.3003202306
 10
505.5053245391
 20
-153.4817585182
 10
505.7948707542
 20
-155.7739999303
 10
505.9399744511
 20
-158.1665876927
 10
505.9399744511
 20
-160.648604538
 10
505.7948707542
 20
-163.2087254627
 10
505.5053245391
 20
-165.835269819
 10
505.0726607974
 20
-168.5162510297
 10
504.4988472599
 20
-171.2394406562
 10
503.7865075682
 20
-173.9924091785
 10
502.9388896636
 20
-176.7625970963
 10
501.9598605196
 20
-179.5373658793
 10
500.8538903361
 20
-182.3040511979
 10
499.6260209301
 20
-185.050034404
 10
498.2818578323
 20
-187.7627820741
 10
496.8275334093
 20
-190.4299174897
 10
495.2696831554
 20
-193.0392738672
 10
493.6154154
 20
-195.5789422642
 10
491.8722783805
 20
-198.037334695
 10
490.0482259972
 20
-200.4032373597
 10
488.1515783015
 20
-202.6658517054
 10
486.1909925196
 20
-204.8148537398
 10
484.1754136614
 20
-206.8404407949
 10
482.1140376425
 20
-208.7333680258
 10
480.0162697956
 20
-210.4849997378
 10
477.8916823943
 20
-212.0873460753
 10
475.749969543
 20
-213.533089063
 10
473.6009028076
 20
-214.8156416801
 10
471.4542883273
 20
-215.9291422007
 10
469.3199205522
 20
-216.8685174027
 10
467.207537627
 20
-217.6294748641
 10
465.1267786676
 20
-218.2085489193
 10
463.0871372517
 20
-218.6030910064
 10
461.0979192716
 20
-218.8113092072
 10
459.168203422
 20
-218.8322423881
 10
457.3067904917
 20
-218.6658046822
 10
455.5221770219
 20
-218.3127520263
 10
453.822505257
 20
-217.7746958449
 10
452.2155302169
 20
-217.054088598
 10
451.6401506607
 20
-216.7384980223
  0
LWPOLYLINE
  5
EA
330
1F
100
AcDbEntity
  8
0
  6
Continuous
 62
     1
370
    25
100
AcDbPolyline
 90
       58
 70
   128
 43
0.0
 10
417.098589011
 20
-64.2017016027
 10
417.5067338237
 20
-64.5138977496
 10
419.1862330533
 20
-65.9570945153
 10
420.7501524533
 20
-67.5684750553
 10
422.1939032858
 20
-69.3433119017
 10
423.5132524265
 20
-71.2763985284
 10
424.704330268
 20
-73.3620645608
 10
425.7636386217
 20
-75.5941955491
 10
426.6880770603
 20
-77.966242096
 10
427.4749271118
 20
-80.4712472318
 10
428.1218865048
 20
-83.1018623877
 10
428.6270586311
 20
-85.8503702082
 10
428.9889578142
 20
-88.7087111682
 10
429.2065198462
 20
-91.6685027755
 10
429.2791125244
 20
-94.7210599142
 10
429.2065198462
 20
-97.8574307751
 10
428.9889578142
 20
-101.0684141578
 10
428.6270586311
 20
-104.3445950206
 10
428.1218865048
 20
-107.676362163
 10
427.4749271118
 20
-111.0539407345
 10
426.6880770603
 20
-114.4674236024
 10
425.7636386217
 20
-117.9068040516
 10
424.704330268
 20
-121.3619864318
 10
423.5132524265
 20
-124.8228416682
 10
422.1939032858
 20
-128.2792163886
 10
420.7501524533
 20
-131.7209724647
 10
419.1862330533
 20
-135.1380159095
 10
417.5067338237
 20
-138.5203212106
 10
415.7165806775
 20
-141.8579693524
 10
413.8210235315
 20
-145.1411706282
 10
411.8256231356
 20
-148.3602935369
 10
409.7362326334
 20
-151.5058967203
 10
407.5589791228
 20
-154.5687548176
 10
405.3002504858
 20
-157.5398812777
 10
402.96667168
 20
-160.4105633385
 10
400.565087617
 20
-163.1723810367
 10
398.1025420889
 20
-165.8172284988
 10
395.5862566948
 20
-168.3373565251
 10
393.0236150357
 20
-170.7253634626
 10
390.422131763
 20
-172.9742526172
 10
387.7894380903
 20
-175.0774284498
 10
385.1332561108
 20
-177.0287174867
 10
382.4613768997
 20
-178.8223931279
 10
379.7816376306
 20
-180.453201025
 10
377.1018983615
 20
-181.9163542312
 10
374.4300191504
 20
-183.2075646635
 10
371.7738371708
 20
-184.3230380623
 10
369.1411434982
 20
-185.2595056435
 10
366.5396602255
 20
-186.014225142
 10
363.9770185664
 20
-186.5849812851
 10
361.4607331722
 20
-186.970094535
 10
358.9981876442
 20
-187.1684416206
 10
356.5966035812
 20
-187.1794338606
 10
354.2630247754
 20
-187.0030445393
 10
352.0042961383
 20
-186.6397906533
 10
349.8270426278
 20
-186.0907359515
 10
347.7376521256
 20
-185.3574916935
 10
347.3909600522
 20
-185.2143871948
  0
LWPOLYLINE
  5
EB
330
1F
100
AcDbEntity
  8
0
  6
Continuous
 62
     1
370
    25
100
AcDbPolyline
 90
       44
 70
   128
 43
0.0
 10
426.8750457486
 20
-77.6494457634
 10
427.1582093503
 20
-78.4290745547
 10
427.9429836696
 20
-80.927455864
 10
428.5882308469
 20
-83.5511171866
 10
429.0920648107
 20
-86.2923601795
 10
429.453005153
 20
-89.1431450902
 10
429.6699929342
 20
-92.0951109101
 10
429.7423959516
 20
-95.1395962878
 10
429.6699929342
 20
-98.26767641
 10
429.453005153
 20
-101.4701709894
 10
429.0920648107
 20
-104.7376887489
 10
428.5882308469
 20
-108.0606460543
 10
427.9429836696
 20
-111.4292939103
 10
427.1582093503
 20
-114.8337563621
 10
426.236215429
 20
-118.2640419045
 10
425.1797045723
 20
-121.7100913879
 10
423.991779842
 20
-125.1617970306
 10
422.675918353
 20
-128.6090343562
 10
421.2359844445
 20
-132.0416910916
 10
419.6762007039
 20
-135.4496975834
 10
418.0011400643
 20
-138.8230617783
 10
416.215720536
 20
-142.151884432
 10
414.3251735967
 20
-145.4264077754
 10
412.3350494594
 20
-148.6370185575
 10
410.2511828285
 20
-151.774307358
 10
408.0796876311
 20
-154.8290655449
 10
405.8269306757
 20
-157.7923369837
 10
403.4995211148
 20
-160.6554302038
 10
401.1042841038
 20
-163.4099427305
 10
398.6482489467
 20
-166.0478013891
 10
396.1386174863
 20
-168.5612653429
 10
393.582749616
 20
-170.9429648764
 10
390.9881441821
 20
-173.1859063356
 10
388.3624106664
 20
-175.2835188945
 10
385.7132514055
 20
-177.2296465683
 10
383.0484362367
 20
-179.018581101
 10
380.375781754
 20
-180.6450800246
 10
377.7031272714
 20
-182.104362284
 10
375.0383121026
 20
-183.3921578551
 10
372.3891528417
 20
-184.5046843587
 10
369.763419326
 20
-185.4386791874
 10
367.1688138921
 20
-186.1914053976
 10
364.6129460218
 20
-186.7606480947
 10
363.9805009497
 20
-186.8741532367
  0
LWPOLYLINE
  5
EC
330
1F
100
AcDbEntity
  8
0
  6
Continuous
 62
     1
370
    25
100
AcDbPolyline
 90
       39
 70
   128
 43
0.0
 10
446.7371182114
 20
-112.6494631274
 10
446.9132393546
 20
-112.9736512956
 10
447.7643422767
 20
-114.7725681033
 10
448.4796111744
 20
-116.7110269917
 10
449.0557849354
 20
-118.7801796693
 10
449.4902293814
 20
-120.9705885442
 10
449.7809636108
 20
-123.272258667
 10
449.9266652661
 20
-125.6746854494
 10
449.9266652661
 20
-128.166909798
 10
449.7809636108
 20
-130.7375601309
 10
449.4902293814
 20
-133.3749048498
 10
449.0557849354
 20
-136.0669126055
 10
448.4796111744
 20
-138.8013013474
 10
447.7643422767
 20
-141.5655921269
 10
446.9132393546
 20
-144.3471714518
 10
445.9301851865
 20
-147.1333513633
 10
444.8196631434
 20
-149.9114173424
 10
443.5867466523
 20
-152.6686914279
 10
442.2370544148
 20
-155.3925960907
 10
440.7767477735
 20
-158.0707013827
 10
439.2124925157
 20
-160.690788051
 10
437.5514206785
 20
-163.2409000069
 10
435.8011147434
 20
-165.709405161
 10
433.9695602211
 20
-168.0850349631
 10
432.0651140414
 20
-170.3569543614
 10
430.0964650405
 20
-172.5147967808
 10
428.0725957655
 20
-174.5487135487
 10
426.0027423031
 20
-176.4494244625
 10
423.8963475231
 20
-178.2082630323
 10
421.7630225533
 20
-179.8171956796
 10
419.61250134
 20
-181.2688875122
 10
417.4545965257
 20
-182.5567125873
 10
415.2991538446
 20
-183.674792405
 10
413.1560081652
 20
-184.6180304101
 10
411.0349383794
 20
-185.3821197833
 10
408.9456216341
 20
-185.9635729041
 10
406.8975923368
 20
-186.3597389331
 10
404.9001939168
 20
-186.5688103661
 10
404.6872443305
 20
-186.5801805976
  0
LWPOLYLINE
  5
ED
330
1F
100
AcDbEntity
  8
0
  6
Continuous
 62
     1
370
    25
100
AcDbPolyline
 90
       41
 70
   128
 43
0.0
 10
445.7623485332
 20
-110.8934441217
 10
446.4099085188
 20
-111.8048633851
 10
447.3889376628
 20
-113.4492691788
 10
448.2365555674
 20
-115.2408182949
 10
448.9488952592
 20
-117.1713369155
 10
449.5227087966
 20
-119.2320155336
 10
449.9553725383
 20
-121.4134538212
 10
450.2449187534
 20
-123.7056952333
 10
450.3900224503
 20
-126.0982829957
 10
450.3900224503
 20
-128.580299841
 10
450.2449187534
 20
-131.1404207657
 10
449.9553725383
 20
-133.766965122
 10
449.5227087966
 20
-136.4479463327
 10
448.9488952592
 20
-139.1711359592
 10
448.2365555674
 20
-141.9241044815
 10
447.3889376628
 20
-144.6942923993
 10
446.4099085188
 20
-147.4690611823
 10
445.3039383354
 20
-150.2357465009
 10
444.0760689293
 20
-152.981729707
 10
442.7319058316
 20
-155.6944773771
 10
441.2775814085
 20
-158.3616127927
 10
439.7197311546
 20
-160.9709691702
 10
438.0654633993
 20
-163.5106375672
 10
436.3223263797
 20
-165.969029998
 10
434.4982739964
 20
-168.3349326627
 10
432.6016263007
 20
-170.5975470084
 10
430.6410405188
 20
-172.7465490428
 10
428.6254616606
 20
-174.7721360979
 10
426.5640856417
 20
-176.6650633288
 10
424.4663177948
 20
-178.4166950408
 10
422.3417303935
 20
-180.0190413783
 10
420.2000175423
 20
-181.464784366
 10
418.0509508068
 20
-182.7473369831
 10
415.9043363265
 20
-183.8608375037
 10
413.7699685514
 20
-184.8002127057
 10
411.6575856262
 20
-185.5611701672
 10
409.5768266668
 20
-186.1402442223
 10
407.5371852509
 20
-186.5347863094
 10
405.5479672708
 20
-186.7430045102
 10
403.6182514213
 20
-186.7639376911
 10
402.0375773318
 20
-186.6351760851
  0
ENDSEC
  0
SECTION
  2
OBJECTS
  0
DICTIONARY
  5
C
330
0
100
AcDbDictionary
281
     1
  3
ACAD_GROUP
350
D
  3
ACAD_LAYOUT
350
1A
  3
ACAD_MLINESTYLE
350
17
  3
ACAD_PLOTSETTINGS
350
19
  3
ACAD_PLOTSTYLENAME
350
E
  3
ACAD_SCALELIST
350
47
  0
DICTIONARY
  5
D
102
{ACAD_REACTORS
330
C
102
}
330
C
100
AcDbDictionary
281
     1
  0
DICTIONARY
  5
1A
102
{ACAD_REACTORS
330
C
102
}
330
C
100
AcDbDictionary
281
     1
  3
Layout1
350
1E
  3
Layout2
350
26
  3
Model
350
22
  0
DICTIONARY
  5
17
102
{ACAD_REACTORS
330
C
102
}
330
C
100
AcDbDictionary
281
     1
  3
Standard
350
18
  0
DICTIONARY
  5
19
102
{ACAD_REACTORS
330
C
102
}
330
C
100
AcDbDictionary
281
     1
  0
ACDBDICTIONARYWDFLT
  5
E
102
{ACAD_REACTORS
330
C
102
}
330
C
100
AcDbDictionary
281
     1
  3
Normal
350
F
100
AcDbDictionaryWithDefault
340
F
  0
DICTIONARY
  5
47
102
{ACAD_REACTORS
330
C
102
}
330
C
100
AcDbDictionary
281
     1
  3
A0
350
48
  3
A1
350
49
  3
A2
350
4A
  3
A3
350
4B
  3
A4
350
4C
  3
A5
350
4D
  3
A6
350
4E
  3
A7
350
4F
  3
A8
350
50
  3
A9
350
51
  3
B0
350
52
  3
B1
350
53
  3
B2
350
54
  3
B3
350
55
  3
B4
350
56
  3
B5
350
57
  3
B6
350
58
  3
B7
350
59
  3
B8
350
5A
  3
B9
350
5B
  3
C0
350
5C
  3
C1
350
5D
  3
C2
350
5E
  3
C3
350
5F
  3
C4
350
60
  3
C5
350
61
  3
C6
350
62
  3
C7
350
63
  3
C8
350
64
  3
C9
350
65
  3
D0
350
66
  3
D1
350
67
  3
D2
350
68
  0
LAYOUT
  5
1E
102
{ACAD_REACTORS
330
1A
102
}
330
1A
100
AcDbPlotSettings
  1

  2
none_device
  4

  6

 40
0.0
 41
0.0
 42
0.0
 43
0.0
 44
0.0
 45
0.0
 46
0.0
 47
0.0
 48
0.0
 49
0.0
140
0.0
141
0.0
142
1.0
143
1.0
 70
   688
 72
     1
 73
     0
 74
     5
  7

 75
    16
147
1.0
148
0.0
149
0.0
100
AcDbLayout
  1
Layout1
 70
     1
 71
     1
 10
0.0
 20
0.0
 11
420.0
 21
297.0
 12
0.0
 22
0.0
 32
0.0
 14
1.0000000000E+20
 24
1.0000000000E+20
 34
1.0000000000E+20
 15
-1.0000000000E+20
 25
-1.0000000000E+20
 35
-1.0000000000E+20
146
0.0
 13
0.0
 23
0.0
 33
0.0
 16
1.0
 26
0.0
 36
0.0
 17
0.0
 27
1.0
 37
0.0
 76
     0
330
1B
  0
LAYOUT
  5
26
102
{ACAD_REACTORS
330
1A
102
}
330
1A
100
AcDbPlotSettings
  1

  2
none_device
  4

  6

 40
0.0
 41
0.0
 42
0.0
 43
0.0
 44
0.0
 45
0.0
 46
0.0
 47
0.0
 48
0.0
 49
0.0
140
0.0
141
0.0
142
1.0
143
1.0
 70
   688
 72
     1
 73
     0
 74
     5
  7

 75
    16
147
1.0
148
0.0
149
0.0
100
AcDbLayout
  1
Layout2
 70
     1
 71
     2
 10
0.0
 20
0.0
 11
0.0
 21
0.0
 12
0.0
 22
0.0
 32
0.0
 14
0.0
 24
0.0
 34
0.0
 15
0.0
 25
0.0
 35
0.0
146
0.0
 13
0.0
 23
0.0
 33
0.0
 16
1.0
 26
0.0
 36
0.0
 17
0.0
 27
1.0
 37
0.0
 76
     0
330
23
  0
LAYOUT
  5
22
102
{ACAD_REACTORS
330
1A
102
}
330
1A
100
AcDbPlotSettings
  1

  2
none_device
  4
Letter_(8.50_x_11.00_Inches)
  6

 40
6.35
 41
6.35
 42
6.35000508
 43
6.35000508
 44
215.9
 45
279.4
 46
0.0
 47
0.0
 48
0.0
 49
0.0
140
0.0
141
0.0
142
1.0
143
1.0
 70
  1712
 72
     1
 73
     0
 74
     0
  7

 75
     0
147
1.0
148
0.0
149
0.0
100
AcDbLayout
  1
Model
 70
     1
 71
     0
 10
0.0
 20
0.0
 11
279.4
 21
215.9
 12
0.0
 22
0.0
 32
0.0
 14
0.0
 24
0.0
 34
0.0
 15
279.4
 25
215.9
 35
0.0
146
0.0
 13
0.0
 23
0.0
 33
0.0
 16
1.0
 26
0.0
 36
0.0
 17
0.0
 27
1.0
 37
0.0
 76
     0
330
1F
331
29
  0
MLINESTYLE
  5
18
102
{ACAD_REACTORS
330
17
102
}
330
17
100
AcDbMlineStyle
  2
Standard
 70
     0
  3

 62
   256
 51
90.0
 52
90.0
 71
     2
 49
0.5
 62
   256
  6
BYLAYER
 49
-0.5
 62
   256
  6
BYLAYER
  0
ACDBPLACEHOLDER
  5
F
102
{ACAD_REACTORS
330
E
102
}
330
E
  0
SCALE
  5
48
102
{ACAD_REACTORS
330
47
102
}
330
47
100
AcDbScale
 70
     0
300
1:1
140
1.0
141
1.0
290
     1
  0
SCALE
  5
49
102
{ACAD_REACTORS
330
47
102
}
330
47
100
AcDbScale
 70
     0
300
1:2
140
1.0
141
2.0
290
     0
  0
SCALE
  5
4A
102
{ACAD_REACTORS
330
47
102
}
330
47
100
AcDbScale
 70
     0
300
1:4
140
1.0
141
4.0
290
     0
  0
SCALE
  5
4B
102
{ACAD_REACTORS
330
47
102
}
330
47
100
AcDbScale
 70
     0
300
1:5
140
1.0
141
5.0
290
     0
  0
SCALE
  5
4C
102
{ACAD_REACTORS
330
47
102
}
330
47
100
AcDbScale
 70
     0
300
1:8
140
1.0
141
8.0
290
     0
  0
SCALE
  5
4D
102
{ACAD_REACTORS
330
47
102
}
330
47
100
AcDbScale
 70
     0
300
1:10
140
1.0
141
10.0
290
     0
  0
SCALE
  5
4E
102
{ACAD_REACTORS
330
47
102
}
330
47
100
AcDbScale
 70
     0
300
1:16
140
1.0
141
16.0
290
     0
  0
SCALE
  5
4F
102
{ACAD_REACTORS
330
47
102
}
330
47
100
AcDbScale
 70
     0
300
1:20
140
1.0
141
20.0
290
     0
  0
SCALE
  5
50
102
{ACAD_REACTORS
330
47
102
}
330
47
100
AcDbScale
 70
     0
300
1:30
140
1.0
141
30.0
290
     0
  0
SCALE
  5
51
102
{ACAD_REACTORS
330
47
102
}
330
47
100
AcDbScale
 70
     0
300
1:40
140
1.0
141
40.0
290
     0
  0
SCALE
  5
52
102
{ACAD_REACTORS
330
47
102
}
330
47
100
AcDbScale
 70
     0
300
1:50
140
1.0
141
50.0
290
     0
  0
SCALE
  5
53
102
{ACAD_REACTORS
330
47
102
}
330
47
100
AcDbScale
 70
     0
300
1:100
140
1.0
141
100.0
290
     0
  0
SCALE
  5
54
102
{ACAD_REACTORS
330
47
102
}
330
47
100
AcDbScale
 70
     0
300
2:1
140
2.0
141
1.0
290
     0
  0
SCALE
  5
55
102
{ACAD_REACTORS
330
47
102
}
330
47
100
AcDbScale
 70
     0
300
4:1
140
4.0
141
1.0
290
     0
  0
SCALE
  5
56
102
{ACAD_REACTORS
330
47
102
}
330
47
100
AcDbScale
 70
     0
300
8:1
140
8.0
141
1.0
290
     0
  0
SCALE
  5
57
102
{ACAD_REACTORS
330
47
102
}
330
47
100
AcDbScale
 70
     0
300
10:1
140
10.0
141
1.0
290
     0
  0
SCALE
  5
58
102
{ACAD_REACTORS
330
47
102
}
330
47
100
AcDbScale
 70
     0
300
100:1
140
100.0
141
1.0
290
     0
  0
SCALE
  5
59
102
{ACAD_REACTORS
330
47
102
}
330
47
100
AcDbScale
 70
     0
300
1/128" = 1'-0"
140
0.0078125
141
12.0
290
     0
  0
SCALE
  5
5A
102
{ACAD_REACTORS
330
47
102
}
330
47
100
AcDbScale
 70
     0
300
1/64" = 1'-0"
140
0.015625
141
12.0
290
     0
  0
SCALE
  5
5B
102
{ACAD_REACTORS
330
47
102
}
330
47
100
AcDbScale
 70
     0
300
1/32" = 1'-0"
140
0.03125
141
12.0
290
     0
  0
SCALE
  5
5C
102
{ACAD_REACTORS
330
47
102
}
330
47
100
AcDbScale
 70
     0
300
1/16" = 1'-0"
140
0.0625
141
12.0
290
     0
  0
SCALE
  5
5D
102
{ACAD_REACTORS
330
47
102
}
330
47
100
AcDbScale
 70
     0
300
3/32" = 1'-0"
140
0.09375
141
12.0
290
     0
  0
SCALE
  5
5E
102
{ACAD_REACTORS
330
47
102
}
330
47
100
AcDbScale
 70
     0
300
1/8" = 1'-0"
140
0.125
141
12.0
290
     0
  0
SCALE
  5
5F
102
{ACAD_REACTORS
330
47
102
}
330
47
100
AcDbScale
 70
     0
300
3/16" = 1'-0"
140
0.1875
141
12.0
290
     0
  0
SCALE
  5
60
102
{ACAD_REACTORS
330
47
102
}
330
47
100
AcDbScale
 70
     0
300
1/4" = 1'-0"
140
0.25
141
12.0
290
     0
  0
SCALE
  5
61
102
{ACAD_REACTORS
330
47
102
}
330
47
100
AcDbScale
 70
     0
300
3/8" = 1'-0"
140
0.375
141
12.0
290
     0
  0
SCALE
  5
62
102
{ACAD_REACTORS
330
47
102
}
330
47
100
AcDbScale
 70
     0
300
1/2" = 1'-0"
140
0.5
141
12.0
290
     0
  0
SCALE
  5
63
102
{ACAD_REACTORS
330
47
102
}
330
47
100
AcDbScale
 70
     0
300
3/4" = 1'-0"
140
0.75
141
12.0
290
     0
  0
SCALE
  5
64
102
{ACAD_REACTORS
330
47
102
}
330
47
100
AcDbScale
 70
     0
300
1" = 1'-0"
140
1.0
141
12.0
290
     0
  0
SCALE
  5
65
102
{ACAD_REACTORS
330
47
102
}
330
47
100
AcDbScale
 70
     0
300
1-1/2" = 1'-0"
140
1.5
141
12.0
290
     0
  0
SCALE
  5
66
102
{ACAD_REACTORS
330
47
102
}
330
47
100
AcDbScale
 70
     0
300
3" = 1'-0"
140
3.0
141
12.0
290
     0
  0
SCALE
  5
67
102
{ACAD_REACTORS
330
47
102
}
330
47
100
AcDbScale
 70
     0
300
6" = 1'-0"
140
6.0
141
12.0
290
     0
  0
SCALE
  5
68
102
{ACAD_REACTORS
330
47
102
}
330
47
100
AcDbScale
 70
     0
300
1'-0" = 1'-0"
140
12.0
141
12.0
290
     0
  0
ENDSEC
  0
EOF
